Chord lagu dan lirik lagu indonesia , Lagu melayu dan kunci lagu iwan fals Terbaru dan terlengkap

Chord Gitar Ipang - Sahabat Kecil

Ipang - Sahabat Kecil

intro :

e|-------4--5--5-5-5-5-5--5-5-5-5-5--5-5-5-5-5|
b|(3)/5-----5--5-5-5-5-5--5-5-5-5-5--5-5-5-5-5|
g|----------6--6-6-6-6-6--6-6-6-6-6--6-6-6-6-6| X4
D|--------------------------------------------|
A|--------------------------------------------|
E|--------------------------------------------|

http://nadamusikindonesia.blogspot.com

A D A
baru saja berakhir
A D E
hujan di-sore ini
C#m F#m
menyisakan keajaiban
D A E A
kilauan indahnya pelangi

A D A
tak pernah terlewatkan
A D E
dan tetap mengaguminya
C#m F#m
kesempatan seperti ini
D A E A
tak akan bisa dibeli


reff (strumming):
Dsus2 A
bersamamu kuhabiskan waktu
D E
senang bisa mengenal dirimu
D C#m
rasanya semua begitu sempurna
D Dm
sayang untuk mengakhirinya.

melodi:
e|-5-----4-----|--2----------|
b|-5--5--5--5--|-----3-------|
g|-------------|--------2----|
D|-------------|--0----------|
A|-0-----------|-------------|
E|-------0-----|-------------|

strumming :

e|-9--9--9---|--9-9-9---5-5-5-|
b|-10-10-10--|--9-9-9---5-5-5-|
g|-9--9--9---|--7-7-7---7-7-7-|
D|-----------|----------------|
A|-----------|----------------|
E|-----------|----------------|

A D A
melawan keterbatasan
A D E
walau sedikit kemungkinan
C#m F#m
takkan menyerah untuk hadapi
D A E A
hingga sedih tak mau datang lagi

musik : D-A-D

-> reff


e|-5-----4-----|--2----------|
b|-5--5--5--5--|-----3-------|
g|-------------|--------2----|
D|-------------|--0----------|
A|-0-----------|-------------|
E|-------0-----|-------------|
janganlah berganti(2x)

A E D
janganlah berganti
A E D
tetaplah seperti ini

Chord Gitar Ipang - Sahabat Kecil Rating: 4.5 Diposkan Oleh: hawai adjja

0 komentar:

Posting Komentar