Chord lagu dan lirik lagu indonesia , Lagu melayu dan kunci lagu iwan fals Terbaru dan terlengkap

Lirik dan Kunci Gitar The Virgin - Cinta Terlarang (TAB)

[intro] C#m F# B 


----------------------------------------------------------||

------------------------~~~--------~~~--------------------||

---------6s8--6--4--6s8--6---1-1--4-3-------6-4-3--4s6---4||

------4---------------------------------------------------||

----------------------------------------------------------||

----------------------------------------------------------||



-----------------------------------||

-------------7---------------------||

---------4-------6s8---------------||

------6----------------------------||

-----------------------------------||

-----------------------------------||



C#m F#
kau kan slalu tersimpan dihatiku
B
meski raga mu tak dapat kumiliki
C#m F#
jiwaku kan slalu bersamamu...
B
meski kau tercipta bukan untukkku.....

E F# D#m
[chorus] Tuhan berikan aku hidup satu kali lagi
G#m C#m
hanya untuk bersamanya... kumencintainya
F# B A-B
sungguh mencintainya........
E F#
rasa ini sungguh tak wajar
D#m G#m
namun kuingin tetap bersama dia
E Em B
untuk selamanya......


C#m F#
mengapa cinta ini terlarang
B
saat ku yakini kau lah milikku
C#m F#
mengapa cinta kita tak bisa bersatu
B
saat kuyakin tak ada cinta selain dirimu....


[interlude]

-----------------------------------||
-----------------------------------||
---pm--6s8--8---11s6--6------------||
---4----------------------9s8--6s4-||
-----------------------------------||
-----------------------------------||


----------------------------------------------------||
----------------------------------------------------||
--8-11-9-8---------8--8s11-------11----13b14-13-11--||
-----------11-9-11------------13----13--------------||
----------------------------------------------------||
----------------------------------------------------||



-------------------------------------------------------||
---16-16-16--16s18s14--14-14s16s12--12-12s14s9--9-9----||
-------------------------------------------------------||
-------------------------------------------------------||
-------------------------------------------------------||
-------------------------------------------------------||



------------------------------------------------------------------------------------||
---16-16-16--16s18s14--14-14s16s12--12-12s14s11--11-11-----12-14-12b14---16--14b16--||
------------------------------------------------------------------------------------||
------------------------------------------------------------------------------------||
------------------------------------------------------------------------------------||
------------------------------------------------------------------------------------||


------14-16-14h16p14-------------------------------------------||
---16------------------16p14----14----------12-----------------||
-----------------------------14----14-13s11----11---------~~~--||
---------------------------------------------------13--11--9---||
---------------------------------------------------------------||
---------------------------------------------------------------||

Lirik dan Kunci Gitar The Virgin - Cinta Terlarang (TAB) Rating: 4.5 Diposkan Oleh: hawai adjja

0 komentar:

Posting Komentar